Chord Terbaru

Andra and The BackBone - Surrender (Tab)


Tab Andra and The BackBone pada lagu yang berjudul Surrender, untuk kunci gitarnya bisa kamu klik disini.

e|---------------------------------------------------------------------------| 
B|---------------------------------------------------------------------------| 
G|---------------------------------------------------------------------------| 
D|-----6h7-6---6h7-6---6h7-6~--4/2--2/4--4/6~--------------------------------| 
A|---7-------7-------7-------------------------------------------------------| 
E|---------------------------------------------------------------------------| 

e|---------------------------------------------------------------------------| 
B|---------------------------------------------------------------------------| 
G|---------------------------------------------------------------------------| 
D|-----6h7-6---6h7-6---6h7-6~--4/2--2/4--4/6~--------------------------------| 
A|---7-------7-------7------------------------6~--4~-------------------------| 
E|---------------------------------------------------------------------------| 

e|---------------------------------------------------------------------------| 

B|---------------------------------------------------------------------------| 
G|---------------------------------------------------------------------------| 
D|-----6h7-6---6h7-6---6h7-6~--4/2--2/4--4/6~--------------------------------| 
A|---7-------7-------7------------------------7--/7--------------------------| 
E|---------------------------------------------------------------------------| 

e|---------------------------------------------------------------------------| 
B|---------------------------------------------------------------------------| 
G|---------------------------------------------------------------------------| 
D|-----6h7-6---6h7-6---6h7-6~--4/2--2/4--4/6~--9/10/11-----------------------| 
A|---7-------7-------7-------------------------------------------------------| 
E|---------------------------------------------------------------------------| 

e|-------------------------------------------------------------------------------| 
B|-------------------------------------------------------------------------------| 
G|13-13-/9---9/11--11b*-13-13-/9---9/11--11b--11b~-9~----------------------------| 
D|---------9---------------------9-----------------------------------------------| 
A|-------------------------------------------------------------------------------| 
E|-------------------------------------------------------------------------------| 

e|---------------------------------------------------------------------------| 
B|------------------------------------------------12-------------------------| 
G|13-13-/9---9/11--11b-11b*--13-13-/9---9/11---/13--13-11-11/9----9----------| 
D|---------9--------------------------9------------------------11------------| 
A|---------------------------------------------------------------------------| 
E|---------------------------------------------------------------------------| 

e|---------------------------------------------------------------------------| 
B|---12/14-------------------------------------------------------------------| 
G|-9-------9-9/11~--11p9h11--11br9-------------------------------------------| 
D|---------------------------------------------------------------------------| 
A|---------------------------------------------------------------------------| 
E|---------------------------------------------------------------------------| 

e|---------------------------------------------------------------------------| 
B|---12/14-------------------------------------------------------------------| 
G|-9-------9-9/11~--11p9h11--11br9---------9~--------------------------------| 
D|--------------------------------/11-9-11-----------------------------------| 
A|---------------------------------------------------------------------------| 
E|---------------------------------------------------------------------------| 

e|---------------------------------------------------------------------------| 
B|---12/14-------------------------------------------------------------------| 
G|-9-------9-9/11~--13-13-11-9----9-11-9-8-6-4-------------------------------| 
D|-----------------------------11--------------------------------------------| 
A|---------------------------------------------------------------------------| 
E|---------------------------------------------------------------------------| 

e|---------------------------------------------------------------------------| 
B|---------------------------------------------------------------------------| 
G|--6666---------6666----------6666------------------------------------------| 
D|--6666---------6666----------6666------------------------------------------| 
A|--4444---------4444-------2*-4444------------------------------------------| 
E|-------0-2-3-4------0-2-3---------0-2-3-4----------------------------------| 

e|---------------------------------------------------------------------------| 
B|---------------------------------------------12----------------------------| 
G|----------------------------------------9-11b~--r-9h11p9~------------------| 
D|-----------------------------------9h11------------------------------------| 
A|-----7h9p7-------7h9p7-------7/9-11----------------------------------------| 
E|-7h9-------9p7h9-------9p7h9-----------------------------------------------| 
  |______________________________________| 
          NOT SURE ABOUT THIS PART 

e|---------------------------------------------------------------------------| 
B|------------------------5---4----------------------------------------------| 
G|---8h9--6h8--4~--(4)(6)---6---6-4~-----------------------------------------| 
D|---------------------------------------------------------------------------| 
A|---------------------------------------------------------------------------| 
E|---------------------------------------------------------------------------| 

e|---------------------------------------------------------------------------| 
B|---------------------------------------------------------------------------| 
G|-----------------4---------------------------------------------------------| 
D|---6--4/2--4--4b~-r-2h4p2--------------------------------------------------| 
A|---------------------------4-2-----------2-4-------------------------------| 
E|-------------------------------4-2-0-2-4-----------------------------------| 

e|---------------------------------------------------------------------------| 
B|---------------------------------------------------------------------------| 
G|---------------------------------------------------------------------------| 
D|--2--1-1--4--2-2--6--4-4--9-6-6--------------------------------------------| 
A|---------------------------------------------------------------------------| 
E|---------------------------------------------------------------------------| 

e|----------------------------12-11b~-12-----------------------------------| 
B|-----------------------12-9-----------11brp9-----------------------------| 
G|------------------11-9-----------------------11p9------------------------| 
D|--------------9----------------------------------------------------------| 
A|----9-7-9/11-9-11--------------------------------------------------------| 
E|-7-9---------------------------------------------------------------------| 
                                        |__3 TIMES_| 

e|-14b--14br-12--14br-14--12-11-12-11------------------------------------| 
B|------------------------------------14-12-14-12------------------------| 
G|-----------------------------------------------------------------------| 
D|-----------------------------------------------------------------------| 
A|-----------------------------------------------------------------------| 
E|-----------------------------------------------------------------------| 

e|--17b17b17b17b17b--16h17p16h17p16------16h17p16h17p16------16h17p16h17p16-| 
B|---------------------------------17--17--------------17--17---------------| 
G|-----------------------------------16------------------16-----------------| 
D|--------------------------------------------------------------------------| 
A|--------------------------------------------------------------------------| 
E|--------------------------------------------------------------------------| 

e|------------------19----19----------------19-19----19-19-------------------| 
B|--19br19br19br19br--19br--19br19br19br19br-----19br-----19br---------------| 
G|---------------------------------------------------------------------------| 
D|---------------------------------------------------------------------------| 
A|---------------------------------------------------------------------------| 
E|---------------------------------------------------------------------------| 

e|---------------------------------------------------------------------------| 
B|--17h19--16h17--14h16--12h14~---12h14h17p12h14h17p12h14h17p12--------------| 
G|-------------------------------------------------------------13-11~--------| 
D|---------------------------------------------------------------------------| 
A|---------------------------------------------------------------------------| 
E|---------------------------------------------------------------------------| 
                                 |___________FAST_____________| 

e|---------------------------------------------------------------------------| 
B|----9-10-9---9-10-9---9-10-9-7-5-7-9~--------------------------------------| 
G|--9--------9--------9------------------------------------------------------| 
D|---------------------------------------------------------------------------| 
A|---------------------------------------------------------------------------| 
E|---------------------------------------------------------------------------| 

e|---------------------------------------------------------------------------| 
B|----9-10-9---9-10-9---9-10-9-7-5-7-9---------------------------------------| 
G|--9--------9--------9----------------8--6~---------------------------------| 
D|---------------------------------------------------------------------------| 
A|---------------------------------------------------------------------------| 
E|---------------------------------------------------------------------------| 

e|---------------------------------------------------------------------------| 
B|---------------------------------------------------------------------------| 
G|---------------------------------------------------------------------------| 
D|-----6h7-6---6h7-6---6h7-6~--4/2--2/4--4/6~--------------------------------| 
A|---7-------7-------7------------------------7--/7--------------------------| 
E|---------------------------------------------------------------------------| 

e|---------------------------------------------------------------------------| 
B|---------------------------------------------------------------------------| 
G|---------------------------------------------------------------------------| 
D|-----6h7-6---6h7-6---6h7-6~--4/2--2/4--4/6~--9/10/11-----------------------| 
A|---7-------7-------7-------------------------------------------------------| 
E|---------------------------------------------------------------------------| 

e|--------------------------------------12p9p7-12p9p7------------------------| 
B|--------------------------------------------9------9-----------------------| 
G|13-13-/9---9/11--11b*-13-13-/9---9/11---------------/9~--------------------| 
D|---------9---------------------9-------------------------------------------| 
A|---------------------------------------------------------------------------| 
E|---------------------------------------------------------------------------| 

e|------------------------------------------------------------------------| 
B|------------------------------------------------------------------------| 
G|13-13-/9---9/11--11b-13-11-9----11b~11b*--------------------------------| 
D|---------9-------------------11-----------------------------------------| 
A|------------------------------------------------------------------------| 
E|------------------------------------------------------------------------| 

e|---------------------------------------------------------------------------| 
B|------------------------------------------------12-------------------------| 
G|13-13-/9---9/11--11b-11b*--13-13-/9---9/11---/13--13-11-11/9----9~---------| 
D|---------9--------------------------9------------------------11------------| 
A|---------------------------------------------------------------------------| 
E|---------------------------------------------------------------------------| 
                             |___________PLAY THIS PART ONLY_______| 

e|---------------------------------------------------------------------------| 
B|---12/14-------------------------------------------------------------------| 
G|-9-------9-9/11~--11p9h11--11br9-------------------------------------------| 
D|---------------------------------------------------------------------------| 
A|---------------------------------------------------------------------------| 
E|---------------------------------------------------------------------------| 

e|---------------------------------------------------------------------------| 
B|---12/14-------------------------------------------------------------------| 
G|-9-------9-9/11~--11p9h11--11br9---------9~--------------------------------| 
D|--------------------------------/11-9-11-----------------------------------| 
A|---------------------------------------------------------------------------| 
E|---------------------------------------------------------------------------| 

e|---------12-11-----------------------------------------------------------| 
B|---12/14-------14-12~--14-12--14-12--------------------------------------| 
G|-9-----------------------------------------------------------------------| 
D|-------------------------------------------------------------------------| 
A|-------------------------------------------------------------------------| 
E|-------------------------------------------------------------------------| 

e|-14p12-14~--14p12-14--14p12-14b14b14b14b14br-14p12-------------------| 
B|---------------------------------------------------------------------| 
G|---------------------------------------------------------------------| 
D|---------------------------------------------------------------------| 
A|---------------------------------------------------------------------| 
E|---------------------------------------------------------------------| 

e|----19-/-21----------------------------------------------------------| 
B|-17---------17-/-19-21-21-19-17----17-19-17-16-14-12-10-9~-----------| 
G|--------------------------------18-----------------------------------| 
D|---------------------------------------------------------------------| 
A|---------------------------------------------------------------------| 
E|---------------------------------------------------------------------|
Title: Andra and The BackBone - Surrender (Tab)
Posted by:Krisnanto
Published :2014-04-22T23:56:00+07:00
Rating: 5
Reviewer: 2376 Reviews
Andra and The BackBone - Surrender (Tab)

Artikel Terkait :

: Posted on - 23.56


Copyright © kumpulankordgitarterbaru.blogspot.com, All Rights Reserved.
Powered by Blogger